ISO-10303-21;
HEADER;
/* Generated by software containing ST-Developer
 * from STEP Tools, Inc. (www.steptools.com) 
 */

FILE_DESCRIPTION(
/* description */ (''),
/* implementation_level */ '2;1');

FILE_NAME(
/* name */ 
'C:\\Users\\svale\\OneDrive\\Upwork\\Controller\\Hand\\Arm ProximalV5.
ipt.stp',
/* time_stamp */ '2021-06-20T10:01:14-05:00',
/* author */ ('svale'),
/* organization */ (''),
/* preprocessor_version */ 'ST-DEVELOPER v18.1',
/* originating_system */ 'Autodesk Inventor 2021',
/* authorisation */ '');

FILE_SCHEMA (('AUTOMOTIVE_DESIGN { 1 0 10303 214 3 1 1 }'));
ENDSEC;

DATA;
#10=MECHANICAL_DESIGN_GEOMETRIC_PRESENTATION_REPRESENTATION('',(#13),#575);
#11=SHAPE_REPRESENTATION_RELATIONSHIP('SRR','None',#582,#12);
#12=ADVANCED_BREP_SHAPE_REPRESENTATION('',(#14),#574);
#13=STYLED_ITEM('',(#591),#14);
#14=MANIFOLD_SOLID_BREP('S\X\F3lido1',#285);
#15=FACE_BOUND('',#71,.T.);
#16=FACE_BOUND('',#73,.T.);
#17=FACE_BOUND('',#83,.T.);
#18=FACE_BOUND('',#84,.T.);
#19=FACE_BOUND('',#86,.T.);
#20=FACE_BOUND('',#87,.T.);
#21=B_SPLINE_CURVE_WITH_KNOTS('',3,(#440,#441,#442,#443,#444,#445,#446,
#447,#448,#449),.UNSPECIFIED.,.F.,.F.,(4,2,2,2,4),(0.610183468441548,0.686495001492079,
0.762806534542609,0.839040868602466,0.915275202662322),.UNSPECIFIED.);
#22=B_SPLINE_CURVE_WITH_KNOTS('',3,(#451,#452,#453,#454,#455,#456,#457,
#458,#459,#460),.UNSPECIFIED.,.F.,.F.,(4,2,2,2,4),(0.305091734220774,0.381326068280631,
0.457560402340488,0.533871935391018,0.610183468441548),.UNSPECIFIED.);
#23=B_SPLINE_CURVE_WITH_KNOTS('',3,(#462,#463,#464,#465,#466,#467,#468,
#469,#470,#471,#472,#473,#474,#475,#476,#477,#478,#479,#480),
 .UNSPECIFIED.,.F.,.F.,(4,2,2,2,3,2,2,2,4),(0.915275202662322,0.991509536722179,
1.06774387078204,1.14405540383257,1.2203669368831,1.29667846993363,1.37299000298416,
1.44922433704401,1.52545867110387),.UNSPECIFIED.);
#24=B_SPLINE_CURVE_WITH_KNOTS('',3,(#487,#488,#489,#490,#491,#492,#493,
#494,#495,#496),.UNSPECIFIED.,.F.,.F.,(4,2,2,2,4),(0.615024883366032,0.692007923542327,
0.768990963718621,0.845764144383835,0.922537325049048),.UNSPECIFIED.);
#25=B_SPLINE_CURVE_WITH_KNOTS('',3,(#498,#499,#500,#501,#502,#503,#504,
#505,#506,#507,#508,#509,#510,#511,#512,#513,#514,#515,#516),
 .UNSPECIFIED.,.F.,.F.,(4,2,2,2,3,2,2,2,4),(0.922537325049048,0.999310505714261,
1.07608368637947,1.15306672655577,1.23004976673206,1.30703280690836,1.38401584708465,
1.46078902774987,1.53756220841508),.UNSPECIFIED.);
#26=B_SPLINE_CURVE_WITH_KNOTS('',3,(#517,#518,#519,#520,#521,#522,#523,
#524,#525,#526),.UNSPECIFIED.,.F.,.F.,(4,2,2,2,4),(0.307512441683016,0.384285622348229,
0.461058803013443,0.538041843189737,0.615024883366032),.UNSPECIFIED.);
#27=CIRCLE('',#307,3.2);
#28=CIRCLE('',#308,3.2);
#29=CIRCLE('',#310,5.);
#30=CIRCLE('',#311,5.);
#31=CIRCLE('',#312,5.);
#32=CIRCLE('',#317,1.3);
#33=CIRCLE('',#318,1.3);
#34=CIRCLE('',#319,1.3);
#35=CIRCLE('',#321,1.3);
#36=CIRCLE('',#322,1.3);
#37=CIRCLE('',#323,1.3);
#38=CIRCLE('',#325,4.);
#39=CIRCLE('',#326,4.);
#40=CIRCLE('',#328,4.);
#41=CIRCLE('',#329,4.);
#42=CIRCLE('',#331,4.);
#43=CIRCLE('',#332,4.);
#44=CYLINDRICAL_SURFACE('',#306,3.2);
#45=CYLINDRICAL_SURFACE('',#309,5.);
#46=CYLINDRICAL_SURFACE('',#315,2.);
#47=CYLINDRICAL_SURFACE('',#316,1.3);
#48=CYLINDRICAL_SURFACE('',#320,1.3);
#49=CYLINDRICAL_SURFACE('',#324,4.);
#50=CYLINDRICAL_SURFACE('',#327,4.);
#51=CYLINDRICAL_SURFACE('',#330,4.);
#52=FACE_OUTER_BOUND('',#67,.T.);
#53=FACE_OUTER_BOUND('',#68,.T.);
#54=FACE_OUTER_BOUND('',#69,.T.);
#55=FACE_OUTER_BOUND('',#70,.T.);
#56=FACE_OUTER_BOUND('',#72,.T.);
#57=FACE_OUTER_BOUND('',#74,.T.);
#58=FACE_OUTER_BOUND('',#75,.T.);
#59=FACE_OUTER_BOUND('',#76,.T.);
#60=FACE_OUTER_BOUND('',#77,.T.);
#61=FACE_OUTER_BOUND('',#78,.T.);
#62=FACE_OUTER_BOUND('',#79,.T.);
#63=FACE_OUTER_BOUND('',#80,.T.);
#64=FACE_OUTER_BOUND('',#81,.T.);
#65=FACE_OUTER_BOUND('',#82,.T.);
#66=FACE_OUTER_BOUND('',#85,.T.);
#67=EDGE_LOOP('',(#185,#186,#187,#188));
#68=EDGE_LOOP('',(#189,#190,#191,#192));
#69=EDGE_LOOP('',(#193,#194,#195,#196,#197,#198,#199,#200));
#70=EDGE_LOOP('',(#201));
#71=EDGE_LOOP('',(#202,#203));
#72=EDGE_LOOP('',(#204,#205));
#73=EDGE_LOOP('',(#206,#207));
#74=EDGE_LOOP('',(#208,#209,#210,#211,#212,#213,#214,#215));
#75=EDGE_LOOP('',(#216,#217,#218,#219,#220));
#76=EDGE_LOOP('',(#221,#222,#223,#224,#225));
#77=EDGE_LOOP('',(#226,#227,#228,#229));
#78=EDGE_LOOP('',(#230,#231,#232,#233,#234));
#79=EDGE_LOOP('',(#235,#236,#237,#238));
#80=EDGE_LOOP('',(#239,#240,#241,#242));
#81=EDGE_LOOP('',(#243,#244,#245,#246));
#82=EDGE_LOOP('',(#247,#248,#249,#250,#251));
#83=EDGE_LOOP('',(#252,#253));
#84=EDGE_LOOP('',(#254,#255));
#85=EDGE_LOOP('',(#256,#257,#258,#259,#260));
#86=EDGE_LOOP('',(#261));
#87=EDGE_LOOP('',(#262));
#88=LINE('',#423,#104);
#89=LINE('',#425,#105);
#90=LINE('',#427,#106);
#91=LINE('',#428,#107);
#92=LINE('',#438,#108);
#93=LINE('',#485,#109);
#94=LINE('',#533,#110);
#95=LINE('',#541,#111);
#96=LINE('',#547,#112);
#97=LINE('',#554,#113);
#98=LINE('',#560,#114);
#99=LINE('',#563,#115);
#100=LINE('',#565,#116);
#101=LINE('',#566,#117);
#102=LINE('',#568,#118);
#103=LINE('',#569,#119);
#104=VECTOR('',#341,10.);
#105=VECTOR('',#342,10.);
#106=VECTOR('',#343,10.);
#107=VECTOR('',#344,10.);
#108=VECTOR('',#357,5.);
#109=VECTOR('',#366,2.);
#110=VECTOR('',#373,1.3);
#111=VECTOR('',#382,1.3);
#112=VECTOR('',#389,10.);
#113=VECTOR('',#398,10.);
#114=VECTOR('',#403,10.);
#115=VECTOR('',#406,10.);
#116=VECTOR('',#409,10.);
#117=VECTOR('',#410,10.);
#118=VECTOR('',#413,10.);
#119=VECTOR('',#414,10.);
#120=VERTEX_POINT('',#421);
#121=VERTEX_POINT('',#422);
#122=VERTEX_POINT('',#424);
#123=VERTEX_POINT('',#426);
#124=VERTEX_POINT('',#433);
#125=VERTEX_POINT('',#434);
#126=VERTEX_POINT('',#437);
#127=VERTEX_POINT('',#439);
#128=VERTEX_POINT('',#450);
#129=VERTEX_POINT('',#484);
#130=VERTEX_POINT('',#486);
#131=VERTEX_POINT('',#497);
#132=VERTEX_POINT('',#528);
#133=VERTEX_POINT('',#529);
#134=VERTEX_POINT('',#532);
#135=VERTEX_POINT('',#536);
#136=VERTEX_POINT('',#537);
#137=VERTEX_POINT('',#540);
#138=VERTEX_POINT('',#544);
#139=VERTEX_POINT('',#546);
#140=VERTEX_POINT('',#550);
#141=VERTEX_POINT('',#552);
#142=VERTEX_POINT('',#556);
#143=VERTEX_POINT('',#557);
#144=VERTEX_POINT('',#559);
#145=VERTEX_POINT('',#561);
#146=EDGE_CURVE('',#120,#121,#88,.T.);
#147=EDGE_CURVE('',#122,#120,#89,.T.);
#148=EDGE_CURVE('',#123,#122,#90,.T.);
#149=EDGE_CURVE('',#123,#121,#91,.T.);
#150=EDGE_CURVE('',#121,#120,#27,.T.);
#151=EDGE_CURVE('',#122,#123,#28,.T.);
#152=EDGE_CURVE('',#124,#125,#29,.T.);
#153=EDGE_CURVE('',#125,#124,#30,.T.);
#154=EDGE_CURVE('',#125,#126,#92,.T.);
#155=EDGE_CURVE('',#127,#126,#21,.T.);
#156=EDGE_CURVE('',#128,#127,#22,.T.);
#157=EDGE_CURVE('',#128,#128,#31,.T.);
#158=EDGE_CURVE('',#126,#128,#23,.T.);
#159=EDGE_CURVE('',#127,#129,#93,.T.);
#160=EDGE_CURVE('',#129,#130,#24,.T.);
#161=EDGE_CURVE('',#130,#131,#25,.T.);
#162=EDGE_CURVE('',#131,#129,#26,.T.);
#163=EDGE_CURVE('',#132,#133,#32,.T.);
#164=EDGE_CURVE('',#133,#132,#33,.T.);
#165=EDGE_CURVE('',#133,#134,#94,.T.);
#166=EDGE_CURVE('',#134,#134,#34,.T.);
#167=EDGE_CURVE('',#135,#136,#35,.T.);
#168=EDGE_CURVE('',#136,#135,#36,.T.);
#169=EDGE_CURVE('',#136,#137,#95,.T.);
#170=EDGE_CURVE('',#137,#137,#37,.T.);
#171=EDGE_CURVE('',#138,#130,#38,.T.);
#172=EDGE_CURVE('',#138,#139,#96,.T.);
#173=EDGE_CURVE('',#139,#131,#39,.T.);
#174=EDGE_CURVE('',#130,#140,#40,.T.);
#175=EDGE_CURVE('',#131,#141,#41,.T.);
#176=EDGE_CURVE('',#141,#140,#97,.T.);
#177=EDGE_CURVE('',#142,#143,#42,.T.);
#178=EDGE_CURVE('',#142,#144,#98,.T.);
#179=EDGE_CURVE('',#144,#145,#43,.T.);
#180=EDGE_CURVE('',#143,#145,#99,.T.);
#181=EDGE_CURVE('',#140,#142,#100,.T.);
#182=EDGE_CURVE('',#141,#144,#101,.T.);
#183=EDGE_CURVE('',#143,#138,#102,.T.);
#184=EDGE_CURVE('',#145,#139,#103,.T.);
#185=ORIENTED_EDGE('',*,*,#146,.F.);
#186=ORIENTED_EDGE('',*,*,#147,.F.);
#187=ORIENTED_EDGE('',*,*,#148,.F.);
#188=ORIENTED_EDGE('',*,*,#149,.T.);
#189=ORIENTED_EDGE('',*,*,#150,.F.);
#190=ORIENTED_EDGE('',*,*,#149,.F.);
#191=ORIENTED_EDGE('',*,*,#151,.F.);
#192=ORIENTED_EDGE('',*,*,#147,.T.);
#193=ORIENTED_EDGE('',*,*,#152,.F.);
#194=ORIENTED_EDGE('',*,*,#153,.F.);
#195=ORIENTED_EDGE('',*,*,#154,.T.);
#196=ORIENTED_EDGE('',*,*,#155,.F.);
#197=ORIENTED_EDGE('',*,*,#156,.F.);
#198=ORIENTED_EDGE('',*,*,#157,.F.);
#199=ORIENTED_EDGE('',*,*,#158,.F.);
#200=ORIENTED_EDGE('',*,*,#154,.F.);
#201=ORIENTED_EDGE('',*,*,#157,.T.);
#202=ORIENTED_EDGE('',*,*,#150,.T.);
#203=ORIENTED_EDGE('',*,*,#146,.T.);
#204=ORIENTED_EDGE('',*,*,#152,.T.);
#205=ORIENTED_EDGE('',*,*,#153,.T.);
#206=ORIENTED_EDGE('',*,*,#151,.T.);
#207=ORIENTED_EDGE('',*,*,#148,.T.);
#208=ORIENTED_EDGE('',*,*,#156,.T.);
#209=ORIENTED_EDGE('',*,*,#159,.T.);
#210=ORIENTED_EDGE('',*,*,#160,.T.);
#211=ORIENTED_EDGE('',*,*,#161,.T.);
#212=ORIENTED_EDGE('',*,*,#162,.T.);
#213=ORIENTED_EDGE('',*,*,#159,.F.);
#214=ORIENTED_EDGE('',*,*,#155,.T.);
#215=ORIENTED_EDGE('',*,*,#158,.T.);
#216=ORIENTED_EDGE('',*,*,#163,.F.);
#217=ORIENTED_EDGE('',*,*,#164,.F.);
#218=ORIENTED_EDGE('',*,*,#165,.T.);
#219=ORIENTED_EDGE('',*,*,#166,.F.);
#220=ORIENTED_EDGE('',*,*,#165,.F.);
#221=ORIENTED_EDGE('',*,*,#167,.F.);
#222=ORIENTED_EDGE('',*,*,#168,.F.);
#223=ORIENTED_EDGE('',*,*,#169,.T.);
#224=ORIENTED_EDGE('',*,*,#170,.F.);
#225=ORIENTED_EDGE('',*,*,#169,.F.);
#226=ORIENTED_EDGE('',*,*,#171,.F.);
#227=ORIENTED_EDGE('',*,*,#172,.T.);
#228=ORIENTED_EDGE('',*,*,#173,.T.);
#229=ORIENTED_EDGE('',*,*,#161,.F.);
#230=ORIENTED_EDGE('',*,*,#174,.F.);
#231=ORIENTED_EDGE('',*,*,#160,.F.);
#232=ORIENTED_EDGE('',*,*,#162,.F.);
#233=ORIENTED_EDGE('',*,*,#175,.T.);
#234=ORIENTED_EDGE('',*,*,#176,.T.);
#235=ORIENTED_EDGE('',*,*,#177,.F.);
#236=ORIENTED_EDGE('',*,*,#178,.T.);
#237=ORIENTED_EDGE('',*,*,#179,.T.);
#238=ORIENTED_EDGE('',*,*,#180,.F.);
#239=ORIENTED_EDGE('',*,*,#181,.F.);
#240=ORIENTED_EDGE('',*,*,#176,.F.);
#241=ORIENTED_EDGE('',*,*,#182,.T.);
#242=ORIENTED_EDGE('',*,*,#178,.F.);
#243=ORIENTED_EDGE('',*,*,#183,.F.);
#244=ORIENTED_EDGE('',*,*,#180,.T.);
#245=ORIENTED_EDGE('',*,*,#184,.T.);
#246=ORIENTED_EDGE('',*,*,#172,.F.);
#247=ORIENTED_EDGE('',*,*,#174,.T.);
#248=ORIENTED_EDGE('',*,*,#181,.T.);
#249=ORIENTED_EDGE('',*,*,#177,.T.);
#250=ORIENTED_EDGE('',*,*,#183,.T.);
#251=ORIENTED_EDGE('',*,*,#171,.T.);
#252=ORIENTED_EDGE('',*,*,#163,.T.);
#253=ORIENTED_EDGE('',*,*,#164,.T.);
#254=ORIENTED_EDGE('',*,*,#167,.T.);
#255=ORIENTED_EDGE('',*,*,#168,.T.);
#256=ORIENTED_EDGE('',*,*,#175,.F.);
#257=ORIENTED_EDGE('',*,*,#173,.F.);
#258=ORIENTED_EDGE('',*,*,#184,.F.);
#259=ORIENTED_EDGE('',*,*,#179,.F.);
#260=ORIENTED_EDGE('',*,*,#182,.F.);
#261=ORIENTED_EDGE('',*,*,#166,.T.);
#262=ORIENTED_EDGE('',*,*,#170,.T.);
#263=PLANE('',#305);
#264=PLANE('',#313);
#265=PLANE('',#314);
#266=PLANE('',#333);
#267=PLANE('',#334);
#268=PLANE('',#335);
#269=PLANE('',#336);
#270=ADVANCED_FACE('',(#52),#263,.F.);
#271=ADVANCED_FACE('',(#53),#44,.F.);
#272=ADVANCED_FACE('',(#54),#45,.T.);
#273=ADVANCED_FACE('',(#55,#15),#264,.F.);
#274=ADVANCED_FACE('',(#56,#16),#265,.T.);
#275=ADVANCED_FACE('',(#57),#46,.T.);
#276=ADVANCED_FACE('',(#58),#47,.F.);
#277=ADVANCED_FACE('',(#59),#48,.F.);
#278=ADVANCED_FACE('',(#60),#49,.T.);
#279=ADVANCED_FACE('',(#61),#50,.T.);
#280=ADVANCED_FACE('',(#62),#51,.T.);
#281=ADVANCED_FACE('',(#63),#266,.T.);
#282=ADVANCED_FACE('',(#64),#267,.T.);
#283=ADVANCED_FACE('',(#65,#17,#18),#268,.F.);
#284=ADVANCED_FACE('',(#66,#19,#20),#269,.T.);
#285=CLOSED_SHELL('',(#270,#271,#272,#273,#274,#275,#276,#277,#278,#279,
#280,#281,#282,#283,#284));
#286=DERIVED_UNIT_ELEMENT(#288,1.);
#287=DERIVED_UNIT_ELEMENT(#577,3.);
#288=(
MASS_UNIT()
NAMED_UNIT(*)
SI_UNIT($,.GRAM.)
);
#289=DERIVED_UNIT((#286,#287));
#290=MEASURE_REPRESENTATION_ITEM('density measure',
POSITIVE_RATIO_MEASURE(1.),#289);
#291=PROPERTY_DEFINITION_REPRESENTATION(#296,#293);
#292=PROPERTY_DEFINITION_REPRESENTATION(#297,#294);
#293=REPRESENTATION('material name',(#295),#574);
#294=REPRESENTATION('density',(#290),#574);
#295=DESCRIPTIVE_REPRESENTATION_ITEM('Gen\X\E9rico','Gen\X\E9rico');
#296=PROPERTY_DEFINITION('material property','material name',#584);
#297=PROPERTY_DEFINITION('material property','density of part',#584);
#298=DATE_TIME_ROLE('creation_date');
#299=APPLIED_DATE_AND_TIME_ASSIGNMENT(#300,#298,(#584));
#300=DATE_AND_TIME(#301,#302);
#301=CALENDAR_DATE(2021,25,4);
#302=LOCAL_TIME(0,0,0.,#303);
#303=COORDINATED_UNIVERSAL_TIME_OFFSET(0,0,.BEHIND.);
#304=AXIS2_PLACEMENT_3D('placement',#419,#337,#338);
#305=AXIS2_PLACEMENT_3D('',#420,#339,#340);
#306=AXIS2_PLACEMENT_3D('',#429,#345,#346);
#307=AXIS2_PLACEMENT_3D('',#430,#347,#348);
#308=AXIS2_PLACEMENT_3D('',#431,#349,#350);
#309=AXIS2_PLACEMENT_3D('',#432,#351,#352);
#310=AXIS2_PLACEMENT_3D('',#435,#353,#354);
#311=AXIS2_PLACEMENT_3D('',#436,#355,#356);
#312=AXIS2_PLACEMENT_3D('',#461,#358,#359);
#313=AXIS2_PLACEMENT_3D('',#481,#360,#361);
#314=AXIS2_PLACEMENT_3D('',#482,#362,#363);
#315=AXIS2_PLACEMENT_3D('',#483,#364,#365);
#316=AXIS2_PLACEMENT_3D('',#527,#367,#368);
#317=AXIS2_PLACEMENT_3D('',#530,#369,#370);
#318=AXIS2_PLACEMENT_3D('',#531,#371,#372);
#319=AXIS2_PLACEMENT_3D('',#534,#374,#375);
#320=AXIS2_PLACEMENT_3D('',#535,#376,#377);
#321=AXIS2_PLACEMENT_3D('',#538,#378,#379);
#322=AXIS2_PLACEMENT_3D('',#539,#380,#381);
#323=AXIS2_PLACEMENT_3D('',#542,#383,#384);
#324=AXIS2_PLACEMENT_3D('',#543,#385,#386);
#325=AXIS2_PLACEMENT_3D('',#545,#387,#388);
#326=AXIS2_PLACEMENT_3D('',#548,#390,#391);
#327=AXIS2_PLACEMENT_3D('',#549,#392,#393);
#328=AXIS2_PLACEMENT_3D('',#551,#394,#395);
#329=AXIS2_PLACEMENT_3D('',#553,#396,#397);
#330=AXIS2_PLACEMENT_3D('',#555,#399,#400);
#331=AXIS2_PLACEMENT_3D('',#558,#401,#402);
#332=AXIS2_PLACEMENT_3D('',#562,#404,#405);
#333=AXIS2_PLACEMENT_3D('',#564,#407,#408);
#334=AXIS2_PLACEMENT_3D('',#567,#411,#412);
#335=AXIS2_PLACEMENT_3D('',#570,#415,#416);
#336=AXIS2_PLACEMENT_3D('',#571,#417,#418);
#337=DIRECTION('axis',(0.,0.,1.));
#338=DIRECTION('refdir',(1.,0.,0.));
#339=DIRECTION('center_axis',(-1.,0.,0.));
#340=DIRECTION('ref_axis',(0.,1.,0.));
#341=DIRECTION('',(0.,-1.,0.));
#342=DIRECTION('',(0.,0.,-1.));
#343=DIRECTION('',(0.,1.,0.));
#344=DIRECTION('',(0.,0.,-1.));
#345=DIRECTION('center_axis',(0.,0.,-1.));
#346=DIRECTION('ref_axis',(1.,3.46944695195361E-16,0.));
#347=DIRECTION('center_axis',(0.,0.,1.));
#348=DIRECTION('ref_axis',(-0.661437827766148,-0.75,0.));
#349=DIRECTION('center_axis',(0.,0.,-1.));
#350=DIRECTION('ref_axis',(-0.661437827766148,-0.75,0.));
#351=DIRECTION('center_axis',(0.,0.,1.));
#352=DIRECTION('ref_axis',(1.,0.,0.));
#353=DIRECTION('center_axis',(0.,0.,1.));
#354=DIRECTION('ref_axis',(1.,0.,0.));
#355=DIRECTION('center_axis',(0.,0.,1.));
#356=DIRECTION('ref_axis',(1.,0.,0.));
#357=DIRECTION('',(0.,0.,-1.));
#358=DIRECTION('center_axis',(0.,0.,-1.));
#359=DIRECTION('ref_axis',(1.,0.,0.));
#360=DIRECTION('center_axis',(0.,0.,1.));
#361=DIRECTION('ref_axis',(1.,0.,0.));
#362=DIRECTION('center_axis',(0.,0.,1.));
#363=DIRECTION('ref_axis',(1.,0.,0.));
#364=DIRECTION('center_axis',(1.,0.,0.));
#365=DIRECTION('ref_axis',(0.,1.,0.));
#366=DIRECTION('',(-1.,0.,0.));
#367=DIRECTION('center_axis',(0.,0.,-1.));
#368=DIRECTION('ref_axis',(-1.,0.,0.));
#369=DIRECTION('center_axis',(0.,0.,1.));
#370=DIRECTION('ref_axis',(-1.,0.,0.));
#371=DIRECTION('center_axis',(0.,0.,1.));
#372=DIRECTION('ref_axis',(-1.,0.,0.));
#373=DIRECTION('',(0.,0.,1.));
#374=DIRECTION('center_axis',(0.,0.,-1.));
#375=DIRECTION('ref_axis',(-1.,0.,0.));
#376=DIRECTION('center_axis',(0.,0.,-1.));
#377=DIRECTION('ref_axis',(-1.,0.,0.));
#378=DIRECTION('center_axis',(0.,0.,1.));
#379=DIRECTION('ref_axis',(-1.,0.,0.));
#380=DIRECTION('center_axis',(0.,0.,1.));
#381=DIRECTION('ref_axis',(-1.,0.,0.));
#382=DIRECTION('',(0.,0.,1.));
#383=DIRECTION('center_axis',(0.,0.,-1.));
#384=DIRECTION('ref_axis',(-1.,0.,0.));
#385=DIRECTION('center_axis',(0.,0.,1.));
#386=DIRECTION('ref_axis',(2.77555756156289E-16,-1.,0.));
#387=DIRECTION('center_axis',(0.,0.,-1.));
#388=DIRECTION('ref_axis',(2.77555756156289E-16,-1.,0.));
#389=DIRECTION('',(0.,0.,1.));
#390=DIRECTION('center_axis',(0.,0.,-1.));
#391=DIRECTION('ref_axis',(2.77555756156289E-16,-1.,0.));
#392=DIRECTION('center_axis',(0.,0.,1.));
#393=DIRECTION('ref_axis',(2.77555756156289E-16,-1.,0.));
#394=DIRECTION('center_axis',(0.,0.,-1.));
#395=DIRECTION('ref_axis',(2.77555756156289E-16,-1.,0.));
#396=DIRECTION('center_axis',(0.,0.,-1.));
#397=DIRECTION('ref_axis',(2.77555756156289E-16,-1.,0.));
#398=DIRECTION('',(0.,0.,-1.));
#399=DIRECTION('center_axis',(0.,0.,1.));
#400=DIRECTION('ref_axis',(-2.77555756156289E-16,1.,0.));
#401=DIRECTION('center_axis',(0.,0.,-1.));
#402=DIRECTION('ref_axis',(-2.77555756156289E-16,1.,0.));
#403=DIRECTION('',(0.,0.,1.));
#404=DIRECTION('center_axis',(0.,0.,-1.));
#405=DIRECTION('ref_axis',(-2.77555756156289E-16,1.,0.));
#406=DIRECTION('',(0.,0.,1.));
#407=DIRECTION('center_axis',(0.,-1.,0.));
#408=DIRECTION('ref_axis',(1.,0.,0.));
#409=DIRECTION('',(-1.,0.,0.));
#410=DIRECTION('',(-1.,0.,0.));
#411=DIRECTION('center_axis',(0.,1.,0.));
#412=DIRECTION('ref_axis',(-1.,0.,0.));
#413=DIRECTION('',(1.,0.,0.));
#414=DIRECTION('',(1.,0.,0.));
#415=DIRECTION('center_axis',(0.,0.,1.));
#416=DIRECTION('ref_axis',(1.,0.,0.));
#417=DIRECTION('center_axis',(0.,0.,1.));
#418=DIRECTION('ref_axis',(1.,0.,0.));
#419=CARTESIAN_POINT('',(0.,0.,0.));
#420=CARTESIAN_POINT('Origin',(64.8189396812541,-2.48213323252256,6.5));
#421=CARTESIAN_POINT('',(64.8189396812541,2.31786676747744,-2.));
#422=CARTESIAN_POINT('',(64.8189396812541,-2.48213323252256,-2.));
#423=CARTESIAN_POINT('',(64.8189396812541,-1.24106661626128,-2.));
#424=CARTESIAN_POINT('',(64.8189396812541,2.31786676747744,6.5));
#425=CARTESIAN_POINT('',(64.8189396812541,2.31786676747744,6.5));
#426=CARTESIAN_POINT('',(64.8189396812541,-2.48213323252256,6.5));
#427=CARTESIAN_POINT('',(64.8189396812541,-1.24106661626128,6.5));
#428=CARTESIAN_POINT('',(64.8189396812541,-2.48213323252256,6.5));
#429=CARTESIAN_POINT('Origin',(66.9355407301057,-0.0821332325225639,6.5));
#430=CARTESIAN_POINT('Origin',(66.9355407301057,-0.0821332325225639,-2.));
#431=CARTESIAN_POINT('Origin',(66.9355407301057,-0.0821332325225639,6.5));
#432=CARTESIAN_POINT('Origin',(67.,0.,2.));
#433=CARTESIAN_POINT('',(72.,0.,6.5));
#434=CARTESIAN_POINT('',(62.,-6.12323399573677E-16,6.5));
#435=CARTESIAN_POINT('Origin',(67.,0.,6.5));
#436=CARTESIAN_POINT('Origin',(67.,0.,6.5));
#437=CARTESIAN_POINT('',(62.,-6.531063949822E-16,2.));
#438=CARTESIAN_POINT('',(62.,-6.12323399573677E-16,2.));
#439=CARTESIAN_POINT('',(62.4174243050442,-2.,-2.44929359829471E-16));
#440=CARTESIAN_POINT('Ctrl Pts',(62.4174243050442,-2.,3.46944695195361E-16));
#441=CARTESIAN_POINT('Ctrl Pts',(62.4174243050442,-2.,0.254371776835101));
#442=CARTESIAN_POINT('Ctrl Pts',(62.3940041662146,-1.94857820072065,0.523440598111858));
#443=CARTESIAN_POINT('Ctrl Pts',(62.3125931513207,-1.74366591114023,1.01517352454281));
#444=CARTESIAN_POINT('Ctrl Pts',(62.2560918982049,-1.59029445166571,1.23813267308049));
#445=CARTESIAN_POINT('Ctrl Pts',(62.1522975824296,-1.23831080168552,1.59011632306067));
#446=CARTESIAN_POINT('Ctrl Pts',(62.0978392344084,-1.01528423068512,1.74362287272866));
#447=CARTESIAN_POINT('Ctrl Pts',(62.0212299114593,-0.523288307694095,1.94863856765519));
#448=CARTESIAN_POINT('Ctrl Pts',(62.,-0.254114446866189,2.));
#449=CARTESIAN_POINT('Ctrl Pts',(62.,0.,2.));
#450=CARTESIAN_POINT('',(62.,0.,-2.));
#451=CARTESIAN_POINT('Ctrl Pts',(62.,6.93889390390723E-17,-2.));
#452=CARTESIAN_POINT('Ctrl Pts',(62.,-0.254114446866189,-2.));
#453=CARTESIAN_POINT('Ctrl Pts',(62.0212299114593,-0.523288307694096,-1.94863856765519));
#454=CARTESIAN_POINT('Ctrl Pts',(62.0978392344084,-1.01528423068512,-1.74362287272866));
#455=CARTESIAN_POINT('Ctrl Pts',(62.1522975824296,-1.23831080168552,-1.59011632306067));
#456=CARTESIAN_POINT('Ctrl Pts',(62.2560918982049,-1.59029445166571,-1.23813267308049));
#457=CARTESIAN_POINT('Ctrl Pts',(62.3125931513207,-1.74366591114023,-1.01517352454281));
#458=CARTESIAN_POINT('Ctrl Pts',(62.3940041662146,-1.94857820072065,-0.523440598111857));
#459=CARTESIAN_POINT('Ctrl Pts',(62.4174243050442,-2.,-0.254371776835101));
#460=CARTESIAN_POINT('Ctrl Pts',(62.4174243050442,-2.,0.));
#461=CARTESIAN_POINT('Origin',(67.,0.,-2.));
#462=CARTESIAN_POINT('Ctrl Pts',(62.,-8.32667268468867E-16,2.));
#463=CARTESIAN_POINT('Ctrl Pts',(62.,0.254114446866189,2.));
#464=CARTESIAN_POINT('Ctrl Pts',(62.0212299114593,0.523288307694094,1.94863856765519));
#465=CARTESIAN_POINT('Ctrl Pts',(62.0978392344084,1.01528423068511,1.74362287272866));
#466=CARTESIAN_POINT('Ctrl Pts',(62.1522975824296,1.23831080168552,1.59011632306067));
#467=CARTESIAN_POINT('Ctrl Pts',(62.2560918982049,1.5902944516657,1.23813267308049));
#468=CARTESIAN_POINT('Ctrl Pts',(62.3125931513207,1.74366591114023,1.01517352454281));
#469=CARTESIAN_POINT('Ctrl Pts',(62.3940041662146,1.94857820072065,0.523440598111858));
#470=CARTESIAN_POINT('Ctrl Pts',(62.4174243050442,2.,0.254371776835101));
#471=CARTESIAN_POINT('Ctrl Pts',(62.4174243050442,2.,0.));
#472=CARTESIAN_POINT('Ctrl Pts',(62.4174243050442,2.,-0.254371776835101));
#473=CARTESIAN_POINT('Ctrl Pts',(62.3940041662146,1.94857820072065,-0.523440598111858));
#474=CARTESIAN_POINT('Ctrl Pts',(62.3125931513207,1.74366591114023,-1.01517352454281));
#475=CARTESIAN_POINT('Ctrl Pts',(62.2560918982049,1.59029445166571,-1.23813267308049));
#476=CARTESIAN_POINT('Ctrl Pts',(62.1522975824296,1.23831080168552,-1.59011632306067));
#477=CARTESIAN_POINT('Ctrl Pts',(62.0978392344084,1.01528423068512,-1.74362287272866));
#478=CARTESIAN_POINT('Ctrl Pts',(62.0212299114593,0.523288307694095,-1.94863856765519));
#479=CARTESIAN_POINT('Ctrl Pts',(62.,0.254114446866189,-2.));
#480=CARTESIAN_POINT('Ctrl Pts',(62.,-1.38777878078145E-16,-2.));
#481=CARTESIAN_POINT('Origin',(67.,0.,-2.));
#482=CARTESIAN_POINT('Origin',(67.,0.,6.5));
#483=CARTESIAN_POINT('Origin',(0.,0.,0.));
#484=CARTESIAN_POINT('',(6.46410161513775,-2.,-2.44929359829471E-16));
#485=CARTESIAN_POINT('',(0.,-2.,-2.44929359829471E-16));
#486=CARTESIAN_POINT('',(7.,0.,-2.));
#487=CARTESIAN_POINT('Ctrl Pts',(6.46410161513775,-2.,-6.93889390390723E-17));
#488=CARTESIAN_POINT('Ctrl Pts',(6.46410161513775,-2.,-0.256610133920982));
#489=CARTESIAN_POINT('Ctrl Pts',(6.49565087190587,-1.94777116895352,-0.526277202526571));
#490=CARTESIAN_POINT('Ctrl Pts',(6.60239202492136,-1.74245741947245,-1.01716471901564));
#491=CARTESIAN_POINT('Ctrl Pts',(6.67540093509767,-1.58951165626207,-1.23891546848412));
#492=CARTESIAN_POINT('Ctrl Pts',(6.80773322014099,-1.23939333961253,-1.58903378513366));
#493=CARTESIAN_POINT('Ctrl Pts',(6.87652968207896,-1.01748151622875,-1.74233015984916));
#494=CARTESIAN_POINT('Ctrl Pts',(6.97318393670131,-0.525890150977711,-1.94792781173826));
#495=CARTESIAN_POINT('Ctrl Pts',(7.,-0.255910602217378,-2.));
#496=CARTESIAN_POINT('Ctrl Pts',(7.,6.93889390390723E-17,-2.));
#497=CARTESIAN_POINT('',(7.,0.,2.));
#498=CARTESIAN_POINT('Ctrl Pts',(7.,6.93889390390723E-17,-2.));
#499=CARTESIAN_POINT('Ctrl Pts',(7.,0.255910602217378,-2.));
#500=CARTESIAN_POINT('Ctrl Pts',(6.97318393670131,0.525890150977711,-1.94792781173826));
#501=CARTESIAN_POINT('Ctrl Pts',(6.87652968207896,1.01748151622875,-1.74233015984916));
#502=CARTESIAN_POINT('Ctrl Pts',(6.80773322014099,1.23939333961253,-1.58903378513366));
#503=CARTESIAN_POINT('Ctrl Pts',(6.67540093509767,1.58951165626207,-1.23891546848412));
#504=CARTESIAN_POINT('Ctrl Pts',(6.60239202492136,1.74245741947245,-1.01716471901564));
#505=CARTESIAN_POINT('Ctrl Pts',(6.49565087190587,1.94777116895352,-0.52627720252657));
#506=CARTESIAN_POINT('Ctrl Pts',(6.46410161513775,2.,-0.256610133920982));
#507=CARTESIAN_POINT('Ctrl Pts',(6.46410161513775,2.,0.));
#508=CARTESIAN_POINT('Ctrl Pts',(6.46410161513775,2.,0.256610133920982));
#509=CARTESIAN_POINT('Ctrl Pts',(6.49565087190587,1.94777116895352,0.526277202526571));
#510=CARTESIAN_POINT('Ctrl Pts',(6.60239202492136,1.74245741947245,1.01716471901564));
#511=CARTESIAN_POINT('Ctrl Pts',(6.67540093509767,1.58951165626207,1.23891546848412));
#512=CARTESIAN_POINT('Ctrl Pts',(6.80773322014099,1.23939333961253,1.58903378513366));
#513=CARTESIAN_POINT('Ctrl Pts',(6.87652968207896,1.01748151622875,1.74233015984916));
#514=CARTESIAN_POINT('Ctrl Pts',(6.97318393670131,0.525890150977711,1.94792781173826));
#515=CARTESIAN_POINT('Ctrl Pts',(7.,0.255910602217377,2.));
#516=CARTESIAN_POINT('Ctrl Pts',(7.,-3.46944695195361E-16,2.));
#517=CARTESIAN_POINT('Ctrl Pts',(7.,-4.16333634234434E-16,2.));
#518=CARTESIAN_POINT('Ctrl Pts',(7.,-0.255910602217378,2.));
#519=CARTESIAN_POINT('Ctrl Pts',(6.97318393670131,-0.525890150977711,1.94792781173826));
#520=CARTESIAN_POINT('Ctrl Pts',(6.87652968207896,-1.01748151622875,1.74233015984916));
#521=CARTESIAN_POINT('Ctrl Pts',(6.80773322014099,-1.23939333961253,1.58903378513366));
#522=CARTESIAN_POINT('Ctrl Pts',(6.67540093509767,-1.58951165626207,1.23891546848412));
#523=CARTESIAN_POINT('Ctrl Pts',(6.60239202492136,-1.74245741947245,1.01716471901564));
#524=CARTESIAN_POINT('Ctrl Pts',(6.49565087190587,-1.94777116895352,0.526277202526571));
#525=CARTESIAN_POINT('Ctrl Pts',(6.46410161513775,-2.,0.256610133920982));
#526=CARTESIAN_POINT('Ctrl Pts',(6.46410161513775,-2.,2.08166817117217E-16));
#527=CARTESIAN_POINT('Origin',(3.,0.,77.5048929942817));
#528=CARTESIAN_POINT('',(1.7,0.,-2.));
#529=CARTESIAN_POINT('',(4.3,-1.59204083889156E-16,-2.));
#530=CARTESIAN_POINT('Origin',(3.,0.,-2.));
#531=CARTESIAN_POINT('Origin',(3.,0.,-2.));
#532=CARTESIAN_POINT('',(4.3,-1.59204083889156E-16,2.));
#533=CARTESIAN_POINT('',(4.3,-1.59204083889156E-16,77.5048929942817));
#534=CARTESIAN_POINT('Origin',(3.,0.,2.));
#535=CARTESIAN_POINT('Origin',(-5.,0.,77.5048929942817));
#536=CARTESIAN_POINT('',(-6.3,0.,-2.));
#537=CARTESIAN_POINT('',(-3.7,-1.59204083889156E-16,-2.));
#538=CARTESIAN_POINT('Origin',(-5.,0.,-2.));
#539=CARTESIAN_POINT('Origin',(-5.,0.,-2.));
#540=CARTESIAN_POINT('',(-3.7,-1.59204083889156E-16,2.));
#541=CARTESIAN_POINT('',(-3.7,-1.59204083889156E-16,77.5048929942817));
#542=CARTESIAN_POINT('Origin',(-5.,0.,2.));
#543=CARTESIAN_POINT('Origin',(3.,0.,0.));
#544=CARTESIAN_POINT('',(3.,4.,-2.));
#545=CARTESIAN_POINT('Origin',(3.,0.,-2.));
#546=CARTESIAN_POINT('',(3.,4.,2.));
#547=CARTESIAN_POINT('',(3.,4.,0.));
#548=CARTESIAN_POINT('Origin',(3.,0.,2.));
#549=CARTESIAN_POINT('Origin',(3.,0.,0.));
#550=CARTESIAN_POINT('',(3.,-4.,-2.));
#551=CARTESIAN_POINT('Origin',(3.,0.,-2.));
#552=CARTESIAN_POINT('',(3.,-4.,2.));
#553=CARTESIAN_POINT('Origin',(3.,0.,2.));
#554=CARTESIAN_POINT('',(3.,-4.,0.));
#555=CARTESIAN_POINT('Origin',(-5.,0.,0.));
#556=CARTESIAN_POINT('',(-5.,-4.,-2.));
#557=CARTESIAN_POINT('',(-5.,4.,-2.));
#558=CARTESIAN_POINT('Origin',(-5.,0.,-2.));
#559=CARTESIAN_POINT('',(-5.,-4.,2.));
#560=CARTESIAN_POINT('',(-5.,-4.,0.));
#561=CARTESIAN_POINT('',(-5.,4.,2.));
#562=CARTESIAN_POINT('Origin',(-5.,0.,2.));
#563=CARTESIAN_POINT('',(-5.,4.,0.));
#564=CARTESIAN_POINT('Origin',(-5.,-4.,0.));
#565=CARTESIAN_POINT('',(-3.,-4.,-2.));
#566=CARTESIAN_POINT('',(-3.,-4.,2.));
#567=CARTESIAN_POINT('Origin',(3.,4.,0.));
#568=CARTESIAN_POINT('',(1.,4.,-2.));
#569=CARTESIAN_POINT('',(1.,4.,2.));
#570=CARTESIAN_POINT('Origin',(-1.,0.,-2.));
#571=CARTESIAN_POINT('Origin',(-1.,0.,2.));
#572=UNCERTAINTY_MEASURE_WITH_UNIT(LENGTH_MEASURE(0.01),#576,
'DISTANCE_ACCURACY_VALUE',
'Maximum model space distance between geometric entities at asserted c
onnectivities');
#573=UNCERTAINTY_MEASURE_WITH_UNIT(LENGTH_MEASURE(0.01),#576,
'DISTANCE_ACCURACY_VALUE',
'Maximum model space distance between geometric entities at asserted c
onnectivities');
#574=(
GEOMETRIC_REPRESENTATION_CONTEXT(3)
GLOBAL_UNCERTAINTY_ASSIGNED_CONTEXT((#572))
GLOBAL_UNIT_ASSIGNED_CONTEXT((#576,#578,#579))
REPRESENTATION_CONTEXT('','3D')
);
#575=(
GEOMETRIC_REPRESENTATION_CONTEXT(3)
GLOBAL_UNCERTAINTY_ASSIGNED_CONTEXT((#573))
GLOBAL_UNIT_ASSIGNED_CONTEXT((#576,#578,#579))
REPRESENTATION_CONTEXT('','3D')
);
#576=(
LENGTH_UNIT()
NAMED_UNIT(*)
SI_UNIT(.MILLI.,.METRE.)
);
#577=(
LENGTH_UNIT()
NAMED_UNIT(*)
SI_UNIT(.CENTI.,.METRE.)
);
#578=(
NAMED_UNIT(*)
PLANE_ANGLE_UNIT()
SI_UNIT($,.RADIAN.)
);
#579=(
NAMED_UNIT(*)
SI_UNIT($,.STERADIAN.)
SOLID_ANGLE_UNIT()
);
#580=SHAPE_DEFINITION_REPRESENTATION(#581,#582);
#581=PRODUCT_DEFINITION_SHAPE('',$,#584);
#582=SHAPE_REPRESENTATION('',(#304),#574);
#583=PRODUCT_DEFINITION_CONTEXT('part definition',#588,'design');
#584=PRODUCT_DEFINITION('Arm ProximalV5','Arm ProximalV5',#585,#583);
#585=PRODUCT_DEFINITION_FORMATION('',$,#590);
#586=PRODUCT_RELATED_PRODUCT_CATEGORY('Arm ProximalV5','Arm ProximalV5',
(#590));
#587=APPLICATION_PROTOCOL_DEFINITION('international standard',
'automotive_design',2009,#588);
#588=APPLICATION_CONTEXT(
'Core Data for Automotive Mechanical Design Process');
#589=PRODUCT_CONTEXT('part definition',#588,'mechanical');
#590=PRODUCT('Arm ProximalV5','Arm ProximalV5',$,(#589));
#591=PRESENTATION_STYLE_ASSIGNMENT((#592));
#592=SURFACE_STYLE_USAGE(.BOTH.,#595);
#593=SURFACE_STYLE_RENDERING_WITH_PROPERTIES($,#599,(#594));
#594=SURFACE_STYLE_TRANSPARENT(0.);
#595=SURFACE_SIDE_STYLE('',(#596,#593));
#596=SURFACE_STYLE_FILL_AREA(#597);
#597=FILL_AREA_STYLE('',(#598));
#598=FILL_AREA_STYLE_COLOUR('',#599);
#599=COLOUR_RGB('',0.749019607843137,0.749019607843137,0.749019607843137);
ENDSEC;
END-ISO-10303-21;
